KGLW - This Thing - Bass Tab

King Gizzard & The Lizard Wizard - This Thing - Bass Tab Taken from the album version and live version (occasional minor differences, mostly noted) https://www.youtube.com/watch?v=dWUY_GH3Nuk Tabbed by @tomkail
mail@pastecode.io avatar
unknown
plain_text
3 years ago
5.2 kB
121
Indexable
Never
King Gizzard & The Lizard Wizard - This Thing

Taken from the album version and live version (occasional minor differences, mostly noted)
https://www.youtube.com/watch?v=dWUY_GH3Nuk


Intro (x2)
G|------------------------------------------------------------------
D|------------------------------------------------------------------
A|------------------------------------------------------------------
E|---12p99---9---9---9---9---9---9-9-12p99---9---9---9---9---9-9-9--


Verse (x2)
G|------------------------------------------------------------------
D|------------------------------------------------------------------
A|------------------------------------------------------------------
E|---12p99---9---9---9---9---9---9-9-12p99---9---9---9---9---9-9-9--
								(something like this anyway, you can see)
G|------------------------------------------------------------------
D|-------------------------------------------------999799799799799--
A|---7---9---9---9---9---9---9p7-7---9---9---9---9----------------9-
E|------------------------------9-----------------------------------


Chorus
(Live version only - this is silent on the album)
G|------------------------------------------------------------------
D|------------------------------------------------------------------
A|------------------------------------------------------------------
E|---9---9---9---9---9---9---9--11---7---7---7---7---7---7---7---9--

(Live version only - this is silent on the album)
G|------------------------------------------------------------------
D|------------------------------------------------------------------
A|------------------------------------------------------------------
E|---11--11--11--11--11--11--11--11--14--14--14--16--17--16--14--12-

G|------------------------------------------------------------------
D|---11--11--9---8-------------------14--14--13--11-----------------
A|-------------------11--9---------------------------14--14--14--14-
E|---------------------------12--9----------------------------------


G|---11--11--11--13--14--13--11------------------9------------------
D|-------------------------------11------------------9---11---------
A|-----------------------------------12--11--9---------------12--11-
E|------------------------------------------------------------------


Intro (x2)
G|------------------------------------------------------------------
D|------------------------------------------------------------------
A|------------------------------------------------------------------
E|---12p99---9---9---9---9---9---9-9-12p99---9---9---9---9---9-9-9--

Verse (x2)
G|------------------------------------------------------------------
D|------------------------------------------------------------------
A|------------------------------------------------------------------
E|---12p99---9---9---9---9---9---9-9-12p99---9---9---9---9---9-9-9--

G|------------------------------------------------------------------
D|-------------------------------------------------999799799799799--
A|---7---9---9---9---9---9---9p7-7---9---9---9---9----------------9-
E|------------------------------9-----------------------------------


Prechorus (16 bars)
G|-------------------------------
D|-------------------------------
A|-------------------------------
E|-------------------------------


Chorus
G|-----------------------------------------------18p16--------------
D|---------------11-------------------------------------16----------
A|-------------------11------13------14-------------------------16--
E|---9---9---9------------------------------------------------------

G|----------------------------------11119---8-----------------------
D|---13----------16--13---------13--------------11--9---8-----------
A|-----------13-------------13------------------------------9-------
E|--------------------------------------------------------------11--

G|----------------------------------------------------------8-------
D|-----------------------------------------6------9-----------------
A|-------------------------------6---7------------------------------
E|---9-------7-------4-------2--------------------------------------

G|---11--13----------------------9---13-----------------------------
D|-----------11--------------11--------------14---------------------
A|---------------12--9---12--------------------------14-------------
E|-------------------------------------------------------14--12--11-

Outro (repeat till end!) 
G|------------------------------------------------------------------
D|-----------------11--------------------11--------------11---------
A|------------------------------------------------------------------
E|---9-9-9-9-9-9-9---9-9-9-9-9-9-9-9-9-9---9-9-9-9-9-9-9---9-9-9-9-9

(I suspect I've not put the high notes in the right places here)
G|-----------------11--------------------11--------------11----------
D|------------------------------------------------------------------
A|---9-9-9-9-9-9-9---9-9-9-9-9-9-9-9-9-9---9-9-9-9-9-9-9---9-9-9-9-9
E|------------------------------------------------------------------

Tabbed by @tomkail